Make your own free website on Tripod.com

Bass Scales
Home Up Guitar 101 Guitar 201 Electric Guitar Leads Chords Song Construction Tips for playing shows

 

Bass Scales

Empty scale - not very useful at all, except to me when I use copy and paste
G --------------
D --------------
A --------------
E --------------
F Minor pentatonic
G --------------------1--3-
D ---------------1--3(R)---
A ----------1--3-----------
E -1(R)--4-----------------
G Major pentatonic
G -----------2-4-
D -------2-5-----
A ---2-5---------
E -3-------------
G Major
G -----------------2-4-5-
D -----------2-4-5-------
A -----2-3-5-------------
E -3-5-------------------

< Back

 

 

Home ] Guitar 101 ] Guitar 201 ] Electric Guitar ] Leads ] Bass techniques ] Chords ] Song Construction ] Tips for playing shows ]

Any questions, e-mail me at danlib64@yahoo.com for help.